THE CHAINSMOKERS FEAT HALSEY - CLOSER


TAB CHAINSMOKER FEAT HALSEY CLOSER


[Verse]

e|----------------|------------------|-------------------|-----------|
B|----3-----3-3---|-3-0-0------------|-------------3-3---|-----------|
G|----------------|-------2-2-0------|-------------------|-----------|
D|----------------|------------------|-------------------|-----------|
A|----------------|------------------|-------------------|-----------|
E|----------------|------------------|-------------------|-----------|
      Hey,  I was doing fine before I met you, Drink too 

e|-------------------------------|-----------------------------------|
B|---3-0--5----------------------|-----------------------------------|
G|----------2-2--0-----------4---|---2-------------------------------|
D|-----------------------0-2-----|-----------------------------------|
A|-------------------------------|-----------------------------------|
E|-------------------------------|-----------------------------------|
much and that's an issue But I'm OK

e|---3---3---3---5--------5---|---3--3--3---3---3----3--5---5--3-----|
B|----------------------------|--------------------------------------|
G|----------------------------|--------------------------------------|  x2
D|----------------------------|--------------------------------------|
A|----------------------------|--------------------------------------|
E|----------------------------|--------------------------------------|
   I know it breaks your heart, moved to the city in a broke down car


[Chorus]

e|------------------------------------------------------------------|
B|---9--11-11---13--9---11-11----9---9---13-13----9--9--11-11--9----|
G|------------------------------------------------------------------|
D|------------------------------------------------------------------|
A|------------------------------------------------------------------|
E|------------------------------------------------------------------|
     So  baby  pull  me  closer  in  the  backseat  of  your  rover