We're Gonna Groove chords tabs - leed zappelin

We're Gonna Groove chord tabs byLed Zappelin
We're Gonna Groove:
Standard Tuning
                                    7/8 time         4/4 time
E|----------------|---------------3|3333-3-33-------|----33-3-3-33---|
B|----------------|---------------3|3333-3-33-------|----33-3-3-33---|
G|----------------|---------------1|1111-1-11-------|----11-1-1-11---|
D|----------------|---------------2|2222-2-22-------|----22-2-2-22---|
A|----------------|----------------|----------------|----------------|
E|----------------|----------------|----------------|0---------------|
E|-3333333-3-3----|----33-3-3-33---|-3333333-3-33---|--3333-33--3----|
B|-3333333-3-3----|--3333-3-3-33---|-3333333-3-33---|--3333-33--3----|
G|-1111111-1-1----|--1111-1-1-11---|-1111111-1-11---|--1111-11--1----|
D|-2222222-2-2----|--2222-2-2-22---|-2222222-2-22--2|--2222-22--2---2|
A|----------------|----------------|----------------|----------------|
E|----------------|----------------|----------------|----------------|
E|7--8--10--------|--3333-33--3----|3--1------------|--3333-33--3----|
B|5--6--8--------5|--3333-33--3----|5--3--1---------|--3333-33--3----|
G|----------------|--1111-11--1----|4--4--2---------|--1111-11--1----|
D|----------------|--2222-22--2----|2-----2--------2|--2222-22--2---2|
A|----------------|----------------|----------------|----------------|
E|----------------|----------------|----------------|----------------|
E|7--8--10--------|--3333-33--3----|3--1------------|----------------|
B|5--6--8--------5|--3333-33--3----|5--3--1---------|1--0--1---------|
G|----------------|--1111-11--1----|4--4--2---------|2--0--2---------|
D|----------------|--2222-22--2----|2-----2---------|2-----2---------|
A|----------------|----------------|----------------|----------------|
E|----------------|----------------|----------------|----------------|
E|----------------|----------------|----------------|
B|1--0--1---------|1--0--1---------|1--0--1---------|
G|2--0--2---------|2--0--2---------|2--0--2---------|
D|2-----2---------|2-----2---------|2-----2---------|
A|----------------|----------------|----------------|
E|----------------|----------------|----------------| 2X
E|--3-33-333-3----|--3-33-333-3----|----33-3-3-3----|--3333-3-3-3----|
B|--3-33-333-3----|--3-33-333-3----|----33-3-3-3----|--3333-3-3-3----|
G|--1-11-111-1----|--1-11-111-1----|----11-1-1-1----|--1111-1-1-1----|
D|--2-22-222-2----|--2-22-222-2----|----22-2-2-2---2|--2222-2-2-2----|
A|----------------|----------------|----------------|----------------|
E|----------------|----------------|----------------|----------------|
E|--3-33-3333-3---|7--8--10--------|--3333-33--3----|3--1------------|
B|--3-33-3333-3---|5--6--8---------|--3333-33--3----|5--3--1---------|
G|--1-11-1111-1---|----------------|--1111-11--1----|4--4--2---------|
D|--2-22-2222-2--2|---------------2|--2222-22--2----|2-----2--------2|
A|----------------|----------------|----------------|----------------|
E|----------------|----------------|----------------|----------------|
E|--3333--33-3----|7--8--10--------|--3333-33--3----|3--1------------|
B|--3333--33-3----|5--6--8---------|--3333-33--3----|5--3--1---------|
G|--1111--11-1----|----------------|--1111-11--1----|4--4--2---------|
D|--2222--22-2---2|----------------|--2222-22--2----|2-----2---------|
A|----------------|----------------|----------------|----------------|
E|----------------|----------------|----------------|----------------|
E|--3-33-333-3----|--3-33-333-3----|--3-33-333-3----|--3-33-333-3----|
B|--3-33-333-3----|--3-33-333-3----|--3-33-333-3----|--3-33-333-3----|
G|--1-11-111-1----|--1-11-111-1----|--1-11-111-1----|--1-11-111-1----|
D|--2-22-222-2---2|--2-22-222-2---2|--2-22-222-2----|--2-22-222-2----|
A|----------------|----------------|----------------|----------------|
E|----------------|----------------|----------------|----------------| 2X
E|--3-33-333-3----|--3-33-333-3----|--3-33-333-3----|--3-33-333-3----|
B|--3-33-333-3----|--3-33-333-3----|--3-33-333-3----|--3-33-333-3----|
G|--1-11-11