AC/DC-Hells Bells Bass Tab

INTRO
      masuk pada 49 detik
G----|-----------------------|------------------------------------------|
D----|-----------------------|------------------------------------------|
A----|--3-2-0----0----3-2-0--|-0-0-0-0-0-0-0-0-0-0-0-0-0-0-0-0-0-0-0-0--|
E----|-----------------------|------------------------------------------|


G---------------------|----------------------------------------------|
D---------------------|----------------------------------------------|
A-0-0-0-0-0-0-0-3-2-0-|--0-0-0-0-0-0-0-0-0-0-0-0-0-0-0-0-0-0-0-0-0-0-|
E---------------------|----------------------------------------------|

 VERSE BRIDGE            VERSE
G-----------------------|---------------------------------|
D---567---5-------------|---------------------------------|
A-5----------5---3-2-0--|-0-0-0-0-0-0-0-0-5-5-5-5-3--2--0-|
E-----------------------|---------------------------------|x6

PRE-CHORUS
G-----------------------|-----------------------|-----------------------|
D-----------------------|-----------------------|-----------------------|
A-5-5-5-5-5-5-5-5-5-3---|-5-5-5-5-5-5-5-5-5-3---|-7-7-7-7-7-7-7-7-7-5---|
E---------------------3-|---------------------3-|---------------------5-|

cont'd                         CHORUS
G-----------------------------|---------------------------------|
D-----------------------------|---------------------------------|
A-----------------------------|-0-0-0-0-0-0-0-0-0-0-0-0-0-0-0-0-|
E-0-0-0-0-0-0-0-0-0-0-0-0-0-0-|---------------------------------|
                                 HELLS BELLS!....
G---------------------------------|-------------------------------|
D---------------------------------|-------------------------------|
A-0-0-0-0-0-0-0-0-0-0-0-0-0-0-0-0-|-0-0-0-0-3-2-0-0-0-0-0-0-0-0-0-|
E---------------------------------|-------------------------------|

G---------------------------------|
D---------------------------------|
A-0-0-0-0-0-0-0-0-0-0-0-0-0-0-0-0-|
E---------------------------------|
____________________________________________________________________________

back to 
VERSE BRIDGE
VERSE x6
PRE-CHORUS
CHORUS

____________________________________________________________________________

G--------------|
D--------------|
A-3---5--3-2-0-|
E--------------|


PRE SOLO
G---------------------------------------------------|----------------|
D---------------------------------------------------|----------------|
A-0---0-0-0-0-0-0-0-0-0-0-0-0-0-0-0-0-0-0-0-0-0-0-0-|-3-2-0---3---5--|
E---------------------------------------------------|----------------|x2

G---------------|  |---------------|
D---------------|  |---------------|
A-3-2-0---7---9-|  |-3-2-0---3---5-|
E---------------|x1|---------------|x1
____________________________________________________________________________
SOLO
G------------------------------|  |------------------------------|
D------------------------------|  |------------------------------|
A-5-5-5-3-5-5-5-3-5-5-5-3-3----|  |-5-5-5-3-5-5-5-3-5-5-5-3-3----|
E---------------------------3--|  |---------------------------3--|

G------------------------------|  |-----------------------------------|
D------------------------------|  |-----------------------------------|
A-7-7-7-5-7-7-7-5-7-7-7-5-5----|  |-----------------------------------|
E---------------------------5--|  |-0-0-0-0-0-0-0-0-0-0-0-0-0-0-0-0-0-|

____________________________________________________________________________

OUTRO CHORUS
G---------------------------|-------------------------|---------------------
D---------------------------|-------------------------|---------------------
A-0-0-0-0-0-0-0-0-0-0-0-0-0-|-0-0-0-0-0-0-0-0-0-0-0-0-|-3-2-0-0-0-0-0-0-0-0-
E---------------------------|-------------------------|---------------------
 HELLS BELLS                  HELLS BELLS                HELLS BELLS
G---------|---------------------------|--------------|---------------------|
D---------|---------------------------|--------------|---------------------|
A-0-0-0-0-|-0-0-0-0-0-0-0-0-0-0-0-0-0-|-3---5--3-2-0-|-0-0-0-0-0-0-0-0-0-0-|
E---------|---------------------------|--------------|---------------------|
            HELLS BELLS                                HELLS BELLS
G---------------------|---------|---------------------|--------------|
D---------------------|-----5---|---------------------|--------------|
A-0-0-0-0-0-0-0-0-0-0-|-5-5---5-|-0-0-0-0-0-0-0-0-0-0-|-3---5--3-2-0-|
E---------------------|---------|---------------------|--------------|
  HELLS BELLS                      HELLS BELLS!
G---------------------|---------------------|---------------------|
D---------------------|---------------------|---567---------------|
A-0-0-0-0-0-0-0-0-0-0-|-0-0-0-0-0-0-0-0-0-0-|-5------3---5--3-2-0-|
E---------------------|---------------------|---------------------|

G---------------|  |---------------------|----------------|-----------|
D---------------|  |---------------------|----------------|-----------|
A-3-2-0---3---5-|  |---3--2--5----7----9-|-3-2-0---3---5--|~~---3-2-0-|
E---------------|x2|---------------------|----------------|-----------|
                                                   HELLS BEELLLSS