AC/DC-Thunderstruck Bass tab



Tuning: Standard


G|-------------------------------------|
D|-------------------------------------| 
A|-------------------------------------|
E|--7-7-7-7-7-7-7-7-7-7-7-7-7-7-7-7----| repeat until"yeah yeah they they they blew our minds"


G|-------------------------------------|
D|-------------------------------------|
A|---------0-2-0-----0-2-0----0-2-0----|
E|--7-5-0--------0---------0--------0--|


    "you've been, thunderstruck"
G|-------------------------------------|
D|-------------------------------------|
A|--2-2-0-0-0---0-0--------------------|
E|------------0-----0-0-0-0------------| repeat 4x


"i was shaking at the knees,"
the bass here is different from what angus plays.
G|-------------------------------------|
D|-------------------------------------|
A|-------------------------------------|
E|--7--7--7-7-7-7---7--7--7-7-7---7----|


[Solo]
G|-----------------------------------------------------|
D|-----------------------------------------------------|
A|----2---0--------2---0--------2---2--------2---0-----|
E|--0---2---0----0---2---2----0---0---0----0---2---0---|

after solo

G|-------------------------------------------------------------------------|
D|-------------------------------------------------------------------------|
A|--2-0----------2-0----------2-0---------2-0------------------------------|
E|-----------------------------------------------7-7-7-7-7-7-7-7-----------|

"thunderstruck!"
G|-------------------------------------|
D|-------------------------------------|
A|-2-2-0-0-0---0-0---------------------|
E|-----------0-----0-0-0-0-------------|repeat 4 x

G|-------------------------------------|
D|-------------------------------------|
A|-2-2-2---0--------2--0---------------|
E|-------2---0--------2--0-------------|
           [hold] 
           
"thunderstruck!"
G|-------------------------------------|
D|-------------------------------------|
A|-2-2-0-0-0---0-0---------------------|
E|-----------0-----0-0-0-0-------------|repeat 8 x


end of song
G|-------------------------------------------|
D|-------------------------------------------|
A|-------------------------------------------|
E|--7--------------7----------7\0------------|
  hold both notes


************************************

| \  Slide down

************************************