AC/DC - You Shook Me All Night Long Bass Tab

 E tuning

[gitar Intro and Verse 1]
G|----------------------------------|---------------------------------|
D|----------------------------------|---------------------------------|
A|----------------------------------|-5-5-5-5-5-5-5-5-5-5-5-5-5-5-5-5-|
E|----------------------------------|---------------------------------|

[Chorus]
G|------------------------------------------------|
D|------------------------------------------------|
A|-----0-2-3--2--5---5-5-5---0-2-3--2-------------|
E|--3------------------------------------------3--|

G|-------------------------------|------------------------------|-----------------------------|
D|---------------------5-5---5---|--------------------5-5-4-5-4-|-----------------------------|
A|-----3-3----3----5-------5---5-|--3-3----3----5---------------|-5-5-5-5-5-5-5-5-5-5-5-5-5-5-|
E|-3--------3----3---------------|-3-------3----3---------------|-----------------------------|

[gitar solo]
G|------------------------------------------------------------------------------------|
D|------------------------------------------------------------------------------------|
A|---0-2-3--2--5--0-2-3-2-----0-2-3--2--5-5-5-5-5-0-2-3-3-3-2-2-2---------------------|
E|-3----------------------------3---------------------------------------------------3-|