Celine Dion - My Heart Will Go On Tab Intro



[Intro]
s = slide

(this piece is often played in the movie "Titanic")
e|-----------------------------------------------------------------------------|
B|-----------------------------------------------------------------------------|
G|-----------------------------------------------------------------------------|
D|-------------------9----------------------------------9------9-11---9--------|
A|-7-9-11---11-9-7-9-----11-9-7-------7-9-11---11-9-7-9-----11-----------11,9s-|
E|------------------------------9-7--------------------------------------------|


[Verse]

e|-------------------------------------------------|
B|-------------------------------------------------|
G|-------------------------------------------------|
D|-------------------------------------------------|
A|-7--7-7-7-6-7--7-6-7--9-11--9--7--7-7-7-6-7--7---|
E|-----------------------------------------------7-|
                                                let ring

[Chorus]

e|-------------------------------------------|
B|-------------------------------------------|
G|-------------------------------------------|
D|---------9--7,6s---------------------------|
A|-7--9------------9--11-12-11--9-7-6-7--7---|
E|-------7---------------------------------7-|
                                          let ring

e|------------------------------------------------------|
B|------------------------------------------------------|
G|------------------------------------------------------|
D|---------9--7,6s--------------------------------------|
A|-7--9------------9--11-12-11--9-7-6-7--7-6-7--9-11--9-|
E|-------7----------------------------------------------|