Elton John-Can You Feel The Love Tonight Tab







[Verse 1]

E|------------------------------------------------------0-1-0---0----|
B|----0-1-3-1------------0-1-3-1--------0-1-1-3-1-------------3---3--|
G|--2---------0--------2--------------2-----------0------------------|
D|-------------------------------------------------------------------|
A|-------------------------------------------------------------------|
E|-------------------------------------------------------------------|

E|------------------------------------------------------0-1-0-----0----|
B|----0-1-3-1------------0-1-3-1--------0-1-1-1-3-1-------------3---3--|
G|--2---------0--------2--------------2-------------0------------------|
D|---------------------------------------------------------------------|
A|---------------------------------------------------------------------|
E|---------------------------------------------------------------------|


[Chorus]

E|----3-0---3-0---------------1-0------------------3-0---------1-0---0-----|
B|--------3-----1------------1----3-------0-1----------1-1---------3---3---|
G|--0-------------2---------0-----------2-----0-0----------2---------------|
D|-------------------------------------------------------------------------|
A|-------------------------------------------------------------------------|
E|-------------------------------------------------------------------------|

E|----3-0---3-0---------------1-0------------------3-0---------1-0---0-----|
B|--------3-----1------------1----3-------0-1----------1-1---------3---3---|
G|--0-------------2---------0-----------2-----0-0----------2---------------|
D|-------------------------------------------------------------------------|
A|-------------------------------------------------------------------------|
E|-------------------------------------------------------------------------|


[Verse 2]

E|------------------------------------------------------0-1-0-----0----|
B|----0-1-3-1------------0-1-3-1--------0-1-1-1-3-1-------------3---3--|
G|--2---------0--------2--------------2-------------0------------------|
D|---------------------------------------------------------------------|
A|---------------------------------------------------------------------|
E|---------------------------------------------------------------------|

E|------------------------------------------------------0-1-0-----0----|
B|----0-1-3-1------------0-1-3-1--------0-1-1-1-3-1-------------3---3--|
G|--2---------0--------2--------------2-------------0------------------|
D|---------------------------------------------------------------------|
A|---------------------------------------------------------------------|
E|---------------------------------------------------------------------|


Chorus


[Outro]

E|-------------3-0-------------0-1-0--------------------------------------|
B|----0-1----------1-1---------------3-1-1--------------------------------|
G|--2-----0-0----------2--------------------------------------------------|
D|------------------------------------------------------------------------|
A|------------------------------------------------------------------------|
E|------------------------------------------------------------------------|

Chords:


[Verse 1]

F              C
There's a calm surrender
F              C
To the rush of day
F                    C
When the heat of the rolling way
Dm            G
can be turned away
F            C
An enchanted moment
F              C
And it sees me through
F                    C
It's enough for this restless warrior
Dm              G
Just to be with you


[Chorus]

    C       G        Am   F          C
And can you feel the love tonight
      Dm       G     F
It is where we are
     C               G    Am   F
It's enough for this wide eyed wanderer
Dm   C  G   Dm   G
That we got this far

   C       G         Am   F          C
And can you feel the love tonight
      Dm       G       F
It is where we are
     C              G         F
It's enough to make kings and vagabonds
Dm      C     G    C
Believe their very best


[Verse 2]

F                  C
There's a time for everyone
F            C
If they only learn
F                 C
That the twisting caleidoscooe
Dm              G
moves us all in turn
F                   C
There's a rhyme and reason
F           C
To the wild outdoors
F                      C
When the heart of this star-crossed voyager
Dm                 G
Beats in time with yours


[Chorus]

    C       G        Am   F          C
And can you feel the love tonight
      Dm       G     F
It is where we are
     C               G    Am   F
It's enough for this wide eyed wanderer
Dm   C  G   Dm   G
That we got this far

   C       G         Am   F          C
And can you feel the love tonight
      Dm       G       F
It is where we are
     C              G         F
It's enough to make kings and vagabonds
Dm      C     G    C
Believe their very best


[Outro]

F    C              Am        F
It's enough to make kings and vagabonds
  Dm    Am   G        C
believe the ve - ry   best