Elvis Presley - Jailhouse Rock Tab



[Verse]

D#|-------|-------|-------|-------|
A#|-------|-------|-------|-------|
F#|-8~-9~-|-8~-9~-|-8~-9~-|-8~-9~-|
C#|-8~-9~-|-8~-9~-|-8~-9~-|-8~-9~-|
G#|-6~-7~-|-6~-7~-|-6~-7~-|-6~-7~-|
D#|-------|-------|-------|-------|


[Chorus]

 (slightly palm muted)
D#|---------------------------------|--------------------------------|
A#|---------------------------------|--------------------------------|
F#|---------------------------------|--------------------------------|
C#|---------2-2-4-2---------2-2-4-2-|--------------------------------|
G#|-0-0-4-4---------0-0-4-4---------|--------2-2-4-2---------2-2-4-2-|
D#|---------------------------------|-0-0-4-4---------0-0-4-4--------|

D#|---------------------------------|-------------------------|
A#|---------------------------------|-------------------------|
F#|---------------------------------|-------------------------|
C#|---------2-2-6-4---------2-2-4-2-|-------------------------|
G#|-0-0-4-4---------0-0-4-4---------|---------2-2-4-2-------2-|
D#|---------------------------------|-0-0-4-4---------0-0-4---|


[Solo]

D#|--8---8--8--8---8--8--8---8--8--8-|--8--8-------------------------|
A#|-12--12-12-12--12-12-12--12-12-12-|-12-12---9------9-----9-9-9-9--|
F#|----------------------------------|--------11b13r-11b13-13131313--|
C#|----------------------------------|-------------------------------|
G#|----------------------------------|-------------------------------|
D#|----------------------------------|-------------------------------|

D#|-5-------5--------------------|-------------------------|
A#|-5-------5--------------------|-------------------------|
F#|-6-------6--------------------|-1-1-2-2-1-1-2-2-1-1-2-2-|
C#|-7--7-7--7--7-7--6/7-7-7--7-7-|-2-2-2-2-2-2-2-2-2-2-2-2-|
G#|-7--7-7--7--7-7--6/7-7-7--7-7-|-------------------------|
D#|-5--5-5--5--5-5--4/5-5-5--5-5-|-------------------------|


************************************

| r  Release
| b  Bend
| /  Slide up
| ~  Vibrato

************************************