Pearl Jam - Better Man Tab

Standard tuning

Chords

Dsus2    A      G    Asus4   Gm

e|-0-|  |-0-|  |-3-|  |-5-|  |-3-|
B|-3-|  |-2-|  |-0-|  |-3-|  |-3-|
G|-2-|  |-2-|  |-0-|  |-2-|  |-3-|
D|-0-|  |-2-|  |-0-|  |-2-|  |-5-|
A|-x-|  |-0-|  |-2-|  |-0-|  |-5-|
E|-x-|  |-x-|  |-3-|  |-0-|  |-3-|


[Intro] x2

e|---------------------------------0---0-0------|
B|-----3-0-------3-0-------5-0-------0-------5--|
G|-----2--2------2--2/4----4--4---4--------4----|
D|----------------------------------------------|
A|----------------------------------------------|
E|---2-------0h2---------4------4---------------|


[Verse 1]

e|-----------------------------------------|
B|-----3-0-------3-0-------5-0-------5-0---|
G|-----2--2------2--2/4----4--4------4--4--|
D|-----------------------------------------|
A|-----------------------------------------|
E|---2-------0h2---------4-------0h4-------|
Waiting, watching the clock, it's 4 o-clock, it's got to stop

e|-----------------------------------------|
B|-----3-0-------3-0-------5-0-------5-0---|
G|-----2--2------2--2/4----4--4------4--4--|
D|-----------------------------------------|
A|-----------------------------------------|
E|---2-------0h2---------4-------0h4-------|
Tell him, take no more, she practices her speech as he

e|-------------------------------------------|
B|--6-6-6-6/8-8-8-8/6-6-6-6/8-8-8-8-8-8-8-8--|
G|--5-5-5-5/7-7-7-7/5-5-5-5/7-7-7-7-7-7-7-7--|
D|-------------------------------------------|
A|-------------------------------------------|
E|--5-5-5-5/7-7-7-7/5-5-5-5/7-7-7-7-7-7-7-7--|
opens the door, she rolls over, pretends to sleep as he looks her over


[Chorus]

Dsus2       A              G         Dsus2
She lies and says she's in love with him
            A           G
Can't find a better man
Dsus2         A          G          Dsus2
She dreams in color, she dreams in red
            Asus4          A
Can't find a better man
            Dsus2
Can't find a better man
            Asus4          A
Can't find a better man

Gm///pm///  Oh....

e|---------------------------------0---0-0------|
B|-----3-0-------3-0-------5-0-------0-------5--|
G|-----2--2------2--2/4----4--4---4--------4----|
D|----------------------------------------------|
A|----------------------------------------------|
E|---2-------0h2---------4------4---------------|


[Verse 2]

e|-----------------------------------------|
B|-----3-0-------3-0-------5-0-------5-0---|
G|-----2--2------2--2/4----4--4------4--4--|
D|-----------------------------------------|
A|-----------------------------------------|
E|---2-------0h2---------4-------0h4-------|
Talking to herself, there's no one else who needs to know

e|---------------------------------0---0-0------|
B|-----3-0-------3-0-------5-0-------0-------5--|
G|-----2--2------2--2/4----4--4---4--------4----|
D|----------------------------------------------|
A|----------------------------------------------|
E|---2-------0h2---------4------4---------------|
She tell herself, ohh..

e|-----|                    |-----|
B|--3--|                    |--5--|
G|--2--|                    |--4--|
D|-----|                    |-----|
A|-----|                    |-----|
E|--2--|...........         |--4--|..........
Memories back when she was bold and strong and waiting for the

e|-------------------------------------------|
B|--6-6-6-6/8-8-8-8/6-6-6-6/8-8-8-8-8-8-8-8--|
G|--5-5-5-5/7-7-7-7/5-5-5-5/7-7-7-7-7-7-7-7--|
D|-------------------------------------------|
A|-------------------------------------------|
E|--5-5-5-5/7-7-7-7/5-5-5-5/7-7-7-7-7-7-7-7--|

World to come along, she swears she knew, now she swears he's gone


[Chorus]

(same chords as 1st chorus)

She lies and says she's in love with him
Can't find a better man
She dreams in color, she dreams in red
Can't find a better man
She lies and says she still loves him
Can't find a better man
She dreams in color, she dreams in red
Can't find a better man
Can't find a better man
Can't find a better man

(The rest of the song has the same chord progression as the chorus)

She loved him, yeah..
She don't want to leave this way
She feeds him, yeah..
That's why she'll be back again
Can't find a better man
Can't find a better man
Can't find a better man
Can't find a better man


************************************

| x  Dead note
| h  Hammer-on
| /  Slide up  

************************************