Pearl Jam - Just Breathe Tab



e|------------------|--3--------3-------|--0-------0------|--3------5------|
B|--1--------1------|-------------------|-----------------|----------------|
G|------0---------0-|------0----------0-|------0--------0-|------0-------0-|
D|----2---------2---|----2---------2----|----2--------2---|----2-------2---|
A|--3------3--------|--3------3---------|--3------3-------|--3------3------|
E|------------------|-------------------|-----------------|----------------|

e|------------------|------------------|------------------|----------------|
B|--3--------3------|--5---------5-----|--3--------3------|--0-------3-----|
G|------0---------0-|------0---------0-|------0---------0-|------0-------0-|
D|----0---------0---|----0---------0---|----0---------0---|----0-------0---|
A|------------------|------------------|------------------|----------------|
E|--3-------3-------|--3-------3-------|--3-------3-------|--3-------3-----|


Stay with me...

e|------------------|--3--------3-------|--0-------0------|--3--------3----|
B|--1--------1------|-------------------|-----------------|----------------|
G|------2---------2-|------2----------2-|------2-------2--|------2-------2-|
D|----2---------2---|----2---------2----|----2-------2----|----2-------2---|
A|--0------0--------|--0------0---------|--0------0-------|--0------0------|
E|------------------|-------------------|-----------------|----------------|

e|--1--------1------|--3--------3------|--1--------1------|--1--------0----|
B|-------1--------1-|-------1--------1-|-------1--------1-|-----1----------|
G|-----2-------2----|-----2-------2----|-----2-------2----|-------------2--|
D|--3------3--------|--3------3--------|--3------3--------|--3------3------|
A|------------------|------------------|------------------|----------------|
E|------------------|------------------|------------------|----------------|

Did I say...

e|--3---------3-----|--3---------3-----|--1---------1-----|--1-------1-----|
B|-------0--------0-|-------0--------0-|-------3--------3-|-------3------3-|
G|-----0--------0---|-----0--------0---|-----2--------2---|-----2------2---|
D|------------------|------------------|--0-------0-------|--0------0------|
A|------------------|------------------|------------------|----------------|
E|--3-------3-------|--3-------3-------|------------------|----------------|

Did I say...

e|--3---------3-----|--3---------3-----|--1---------1-----|--1-------1-----|
B|-------0--------0-|-------0--------0-|-------3--------3-|-------3------3-|
G|-----0--------0---|-----0--------0---|-----2--------2---|-----2------2---|
D|------------------|------------------|--0-------0-------|--0------0------|
A|------------------|------------------|------------------|----------------|
E|--3-------3-------|--3-------3-------|------------------|----------------|

Oh if I didn't...

e|--1--------1------|--1--------1------|--1--------1------|--1-------1-----|
B|-------1--------1-|-------1--------1-|-------3--------3-|-------3------3-|
G|-----2-------2----|-----2-------2----|-----2-------2----|-----2------2---|
D|--3------3--------|--3------3--------|--0------0--------|--0------0------|
A|------------------|------------------|------------------|----------------|
E|------------------|------------------|------------------|----------------|

Noone knows this more...

e|--1--------1------|--1--------1------|--3---------3-----|--3---------3----|
B|-------1--------1-|-------1--------1-|-------0--------0-|------0--------0-|
G|-----2-------2----|-----2-------2----|-----0--------0---|----0--------0---|
D|--3------3--------|--3------3--------|------------------|-----------------|
A|------------------|------------------|------------------|-----------------|
E|------------------|------------------|--3-------3-------|--3------3-------|

'Cos I come clean...

e|--1---------1-----|--1--------1h0---|
B|-------0--------0-|------0----------|
G|-----0--------0---|----0------------|
D|------------------|-----------------|
A|------------------|-----------------|
E|--3-------3-------|--3------3-------|

And repeat



************************
|h     Hammer-on
************************